Мир Вам!



Онлайн всего: 1
Гостей: 1
Пользователей: 0
 Каталог файлов
Главная » Файлы » Музыка » Новый Иерусалим

День как день
[ ] 09.02.2008, 14:27
 
Слова и музыка: Игорь Копылов, Эльшад Бабаханов, Вадим
Калацей
Группа "Новый Иерусалим"
Альбом: Ну что ты думаешь об этом (1997), track # 9


Весь куплет играется на следующем риффе.
Em - Esus/F# | Em/G | Am2/C | Hsus ||

Для удобства буду писать вместо
Esus/F# - */F#
Em/G -- */G


Em - */F# - Em/G - Am2/C --- Hsus
День как день, __ ночь как ночь.
Em - */F# - Em/G - Am2/C --- Hsus
Кто -- при -- дет  мне помочь?
Em - */F# - Em/G - Am2/C - Hsus
День _ на _ день так __ похож,
Em - */F# - Em/G - Am2/C - Hsus
Что внут - ри, ___ не поймешь.

Am2/C ------- Hsus - Em - */F# - Em/G
Я не могу так жить, где - то выход есть.
Am2/C ------- Hsus
Я не могу так жить.


Am2/C -- Hsus -- Em - */F# - Em/G
Нарисую на стене дверь для Христа.
Am2/C ------- Hsus ----- Em - */F# - Em/G
Он сейчас так нужен мне, я уже устал.
Am2/C ---- Hsus ---- Em - */F# - Em/G
Я открою эту дверь, пусть Он войдет
Am2/C ----- Hsus
Он меня поймет.

 

День как день, ночь как ночь. Бог придет мне помочь.
Прочь уйдет пустота - я позвал в дом Христа.
Я много долгих дней без Него прожил.
Так много долгих дней.


Am2/C -- Hsus -- Em - */F# - Em/G
Нарисую на стене дверь для Христа.
Am2/C ------- Hsus ----- Em - */F# - Em/G
Он сейчас так нужен мне, я уже устал.
Am2/C ---- Hsus ---- Em - */F# - Em/G
Я открою эту дверь, пусть Он войдет
Am2/C ----- Hsus
Он меня поймет.

A ---- G#7
Он поймет.


BRIDGE:

C#m7 ------- A -------------- E/G# - A
Я хочу спросить так много у Него.
-- C#m7 ------------- A
Я хочу спросить Его, для чего
Am ----- Am/C --- Hsus
____Я живу, я живу...

(припев)

 

ПОЯСНЕНИЯ К АККОРДАМ:

Esus/F#

_I__
----|----|----|----|--
----|----|----|----|--
----|-4--|----|----|--
----|-3--|----|----|--
----|-2--|----|----|--
----|-1--|----|----|--

 

Em/G

_I__
----|----|----|----|--
----|----|----|----|--
----|----|----|----|--
----|-3--|----|----|--
----|-2--|----|----|--
----|----|-4--|----|--

 

Am2/C

_I__
----|----|----|----|--
----|----|----|----|--
----|-3--|----|----|--
----|-2--|----|----|--
----|----|-4--|----|--
----|----|----|----|--

 

Hsus

_I__
----|----|----|----|--
----|----|----|----|--
----|-2--|----|----|--
----|----|----|-4--|--
----|-1--|----|----|--
----|----|----|----|--

 

E/G#

_4__
-1---|----|----|----|--
-1---|-2--|----|----|--
-1---|----|----|----|--
-1---|----|-3--|----|--
-1---|----|----|-4--|--
-1---|----|----|----|--

Категория: Новый Иерусалим | Добавил: Лаванда
Просмотров: 1338 | Загрузок: 0 | Комментарии: 2 | Рейтинг: 0.0/0 |
Всего комментариев: 1
1  
http://basetea.ru/ - http://basetea.ru
http://STROYMAGNIT.ru/ - http://STROYMAGNIT.ru
http://BL-STROITEL.RU/ - http://BL-STROITEL.RU
http://LEGKO-STROI.RU/ - http://LEGKO-STROI.RU
http://kulinar-profi.ru/ - http://kulinar-profi.ru

Добавлять комментарии могут только зарегистрированные пользователи.
[ Регистрация | Вход ]
Вторник
24.04.2018
04:20
Категории каталога
Новый Иерусалим [11]
Группа "Новый Иерусалим"
Форма входа
Приветствую Вас Гость!
Мини-чат
Наш опрос
Оцените мой сайт
Всего ответов: 118
Друзья сайта

Copyright MyCorp © 2018